NEWEST TRACK!

Saturday, April 11, 2009

White Hole Moon

THIS IS SANS SOLO. ANYONE OUT THERE WHO CAN- sorry- can provide a decent tutorial to do it I'd be grateful.

BLACK HOLE SUN

Now, in my advetures of copping out, here's what's played underneath the solo, or the RHYTHM section (in Drop D tuning):

A---3-2-0-2h3---------
D---------------5-4-3--

Repeat until the barely coherent screeching stops.

Other than that, simple song (from here):
e*----------12---------------------10------------13------------------------12----
B*------12------12----12-------11------------13------13----13----------12------
G*--12-------------12------12------------10-------------10------10/12----------

e*---------11---------------------10--------------------12----------10-----------11--
B*-----11------11----11-------10------10----10-----12----------12------------13---
G*-12-------------12------12-------------12------12-------12-10-------10-13-------


SETLIST UPDATED

No comments: