NEWEST TRACK!

Thursday, April 30, 2009

Like Flies In The Vasoline

VASOLINE

Super-easy song. Only half the solo will mess you up. Most of the song:

E--1--3--

Repeat.

The chorus:
G--8---------7-6-5-----------
D--8-x16----7-6-5-x16------
A--6---------5-4-3----------

The solo Pt 1:
e---8p7---------
B---------6--6--
Repeat 8 times, finishing off with bend the 6th fret of the B string. It's easier if your index finger is already in position on the 6th fret of B.

Second part is disorienting, but doable:
G----4p0-4p0-4p0---------------
D--------------------5p0---------
A-------------------------2--2----

G---4p0-4p0-4p0----0-5b-----
D-------------------0-----------
A-------------------------------

Repeat twice.
Tomorrow: "Breed" by Nirvana

SETLIST UPDATED

No comments: