NEWEST TRACK!

Thursday, November 27, 2008

Electric Skin!

Happy belated Thanksgiving everyone!

Remember, don't cook your turkey in an electrical oven, or else you'll get the titular result

Also, a DOUBLE SONG UPDATE? Haven't seen one of those in a while!

ELECTRIC VERSION
The problem with this song isn't that it's hard, it's just fast. The only part that I had to fudge around a bit on was the pre-chorus and chorus.

Pre-Chorus:
G--------9-9-9-------------------------
D-777---9-9-9--9---9-9---9-9-9-9
A-777---7-7-7--9----9-9---9-9-9-9
E-555------------7----7-7----7-7-7-7

Chorus:
E-----------x-x-7--x-x-9-----------
D---x-x-7--x-x-7--x-x-9---x-x-9
A---x-x-7--x-x-5--x-x-7---x-x-9
G---x-x-5--------------------x-x-7

CELEBRITY SKIN
Everything else can be mastered if you have a pulse, the bridge and last verse (using the same progression),... yeesh...

Basically, it's an arepggio of the A and D open chords, but it get pretty fast, and I find it hard to coordinate.
Start by switching positions every four beats, then get used to the string order.

Bridge
E----------------2---------------------2----------------------2-----------------------
B------2------------3-------2-----------3-------2-------------3--------------------
G---------2----2--------------2----2---------------2----2------------------------

D----2------0-----------2-------0-----------2--------0----------2b-----2b-
A-0------------------0--------------------0-------------------4--------4----
E------------------------------------------------------------2----------2--------

E---------------2---------------------2----------------------2-------------------
B------2-----------3-------2------------3------2-------------3-----------------
G--------2----2--------------2----2---------------2----2---------------------
D---2------0-----------2------0------------2--------0----------4-4-4-4-4-4-4-4-
A-0------------------0-----------------0-------------------------4-4-4-4-4-4-4-4-
E-------------------------------------------------------------------2-2-2-2-2-2-2-2-


Look at this, Creep's going to be a bitch.

No comments: