NEWEST TRACK!

Tuesday, December 2, 2008

Go Wit It

Wow. That was a longer break than usual. Anyway, here is a song lesson:

GO WITH THE FLOW
I hate these songs because it requires a rhythm and lead guitar part.

Rhythm part here: E, C5, Amin
B------------------1-----
G-1--------5------2-----
D-2--------5-x8---2-----
A-2-x16---3-------0-----
E-0----------------------

It never stops.

LEAD part: EASY AS HELL. You know that scale I showed you in the Mississipi Queen update?
Move it down a bit, and you get this:
e-------------------------------------------12--14--15----
B--------------------------------12--13--15---------------
G------------------------12--14--------------------------

Exactly all the notes you play over the chords is some where in here.

There weren't any really tricky parts, I guess it's this high because the chords come at you so fast.

For a bit of extra spice, toward the end, these three notes are played:
e-15----------17--------16--------

Because I'm such a bastard, play it with tremolo picking.

"Crushcrushcrush" is the Reader's Choice DLC song.

SETLIST UPDATED

No comments: