NEWEST TRACK!

Thursday, December 31, 2009

The 2009 Show

What have I done this year?
Learned 30 songs.
Played 6 open mic nights.
Saw 2 concerts.
Reviewed 4 CDs.
Entered a couple contests.
Got old enough to drink.
Fell in love.
Broke up.
Got into some new stuff.

Yeah, it's been a good year.

ENTER SANDMAN
The solo for this song gave me a greater appreciation for Metallica. The solo uses a blues scale that I fucking love to play.

B|--9b---9b---9b--9b--9b-----------------10---10--8--7-------
G|--9b---9b---9b--9b--9b---7--9-------7----------------9-----
D|-------------------------------------7h9-------------------------
A|---------------------------------------------------------------
E|------------------------------------------------------------


B|--7/8\7----7------------------------------------------------------------
G|----------9----9--7-----7----9p7---------------------------------------
D|---------------------9-----------9p7----7--9--7---------------------------
A|----------------------------------------9----------9--8--7------------------
E|--------------------------------------------------------------10--7/----------

The Year Of The Bastard starts tomorrow.

SETLIST UPDATED

No comments: