NEWEST TRACK!

Sunday, February 1, 2009

Super Strokes

Steelers won the Super Bowl. I don't follow football, but it was really exciting to watch.

REPTILIA
Fuck this song, and fuck it hard. It was great, and the chorus part once I got it down flowed, but it was a long road. I guess AC/DC was right: It's a long way to the top if you want to Rock and Roll.

Here's the chorus which was not ripped off from another post:
e-7-------10-9-------9---7-----7-10-9-----12-9--
B---7--10------7-10--------8------------10--------

e--7----7-10-9---12-9-----------9--10-7-----9-
B----8----------10--------7--8-7------------7-----


And here's the solo (tab modified from here):
e-------------------------------10-9----------------------
B--12--12--10p9-----------------------10p9--------------
G---------------11p9-11---------------------11p9-11-----
D------------------------12---------------------------12--

e-12b13r12---10p9---------------12b13r12---10p9----------
B-------------------12p10--12-9---------------------12--10-

It works along a scale, so keep index finger on the 9th fret, and hover the pinky over the 12th fret. It would work best if you bridge the 9th fret of the e,B,and G strings with your index and pick of or pluck off whatever string you need. Otherwise at this speed, you'll waste extra energy moving back to the fret board and changing to the lower string.

One thing to note: in the video below, you'll note that the Rock band chart has chords where the GH3 chart has the main riff. Those chords are (799---) and (-799--) (sorry, it's late andI'm to excited to look up the names.

It's a pretty close race: RB charted the main riff a bit better, but GH3 had the breakdown before the chorus down.

SETLIST UPDATED

Toxicity is the DLC Reader's Choice song.

No comments: