NEWEST TRACK!

Wednesday, November 18, 2009

Play Foreplay

FOREPLAY
Straight up Power Chords all the way through. Makes sense; this was the first song Tom Scholz, the guitarist for Boston, ever wrote and recorded.

The tab is solid. But, right up until this point:
D-3-5-6---6---6---3------|
A-1-3-4-6-4-6-4-6-1-3-4--|
E-------4---4---4---1-2--|


D-6-8-10--
A-4-6--8--
E----------

It where I bring the legitimacy into question. After this part, play this:

D-3-----6-----3-----6----
A-1---6-4---6-1---6-4----
E-----4-----4-----4------

Then repeat 4x:
D-3----6----
A-1-6--4--3-
E---4-----1-

Then:
D---8-10-10-10-10-10-
A---6-8---8--8-8---8-

That's it, Long Time HOPEFULLY sometime this weekend.

No comments: